ISO-10303-21;
HEADER;
FILE_DESCRIPTION (( 'STEP AP203' ),
    '1' );
FILE_NAME ('BK7-BSC-15-650-900.STEP',
    '2020-12-22T03:17:41',
    ( '' ),
    ( '' ),
    'SwSTEP 2.0',
    'SolidWorks 2020',
    '' );
FILE_SCHEMA (( 'CONFIG_CONTROL_DESIGN' ));
ENDSEC;

DATA;
#1 = EDGE_LOOP ( 'NONE', ( #242, #300, #28, #9 ) ) ;
#2 = LINE ( 'NONE', #199, #114 ) ;
#3 = ORIENTED_EDGE ( 'NONE', *, *, #100, .F. ) ;
#4 = PLANE ( 'NONE',  #295 ) ;
#5 = AXIS2_PLACEMENT_3D ( 'NONE', #237, #234, #15 ) ;
#6 = VERTEX_POINT ( 'NONE', #62 ) ;
#7 = CARTESIAN_POINT ( 'NONE',  ( -7.499999999999999112, -7.500000000000000888, 7.500000000000000000 ) ) ;
#8 = EDGE_CURVE ( 'NONE', #266, #278, #231, .T. ) ;
#9 = ORIENTED_EDGE ( 'NONE', *, *, #59, .T. ) ;
#10 = DIRECTION ( 'NONE',  ( 1.000000000000000000, 0.000000000000000000, 0.000000000000000000 ) ) ;
#11 = PERSON_AND_ORGANIZATION ( #41, #77 ) ;
#12 = PERSON_AND_ORGANIZATION ( #41, #77 ) ;
#13 = AXIS2_PLACEMENT_3D ( 'NONE', #301, #180, #22 ) ;
#14 = EDGE_CURVE ( 'NONE', #107, #96, #111, .T. ) ;
#15 = DIRECTION ( 'NONE',  ( 0.000000000000000000, 0.000000000000000000, 1.000000000000000000 ) ) ;
#16 = DATE_AND_TIME ( #38, #149 ) ;
#17 = DIRECTION ( 'NONE',  ( -1.642204890591376725E-16, -1.000000000000000000, 0.000000000000000000 ) ) ;
#18 = PERSON_AND_ORGANIZATION ( #41, #77 ) ;
#19 = EDGE_CURVE ( 'NONE', #80, #266, #82, .T. ) ;
#20 = ORIENTED_EDGE ( 'NONE', *, *, #177, .F. ) ;
#21 = PERSON_AND_ORGANIZATION ( #41, #77 ) ;
#22 = DIRECTION ( 'NONE',  ( 1.000000000000000000, 0.000000000000000000, 0.000000000000000000 ) ) ;
#23 = LOCAL_TIME ( 11, 17, 41.00000000000000000, #189 ) ;
#24 = DIRECTION ( 'NONE',  ( 0.7071067811865475727, 0.7071067811865475727, 0.000000000000000000 ) ) ;
#25 = ORIENTED_EDGE ( 'NONE', *, *, #132, .F. ) ;
#26 = DIRECTION ( 'NONE',  ( 0.000000000000000000, 0.000000000000000000, -1.000000000000000000 ) ) ;
#27 = ADVANCED_FACE ( 'NONE', ( #133 ), #4, .F. ) ;
#28 = ORIENTED_EDGE ( 'NONE', *, *, #119, .F. ) ;
#29 = CARTESIAN_POINT ( 'NONE',  ( 7.499999999999996447, 7.500000000000000000, 7.500000000000000000 ) ) ;
#30 = ORIENTED_EDGE ( 'NONE', *, *, #56, .F. ) ;
#31 = DIRECTION ( 'NONE',  ( 1.000000000000000000, 0.000000000000000000, 0.000000000000000000 ) ) ;
#32 = ORIENTED_EDGE ( 'NONE', *, *, #14, .F. ) ;
#33 = ORIENTED_EDGE ( 'NONE', *, *, #126, .F. ) ;
#34 = DIRECTION ( 'NONE',  ( -2.220446049250312588E-16, 1.000000000000000000, 0.000000000000000000 ) ) ;
#35 = ADVANCED_FACE ( 'NONE', ( #55 ), #230, .F. ) ;
#36 = DATE_AND_TIME ( #261, #217 ) ;
#37 = FACE_OUTER_BOUND ( 'NONE', #293, .T. ) ;
#38 = CALENDAR_DATE ( 2020, 22, 12 ) ;
#39 = DATE_AND_TIME ( #259, #23 ) ;
#40 = PLANE ( 'NONE',  #124 ) ;
#41 = PERSON ( 'UNSPECIFIED', 'UNSPECIFIED', 'UNSPECIFIED', ('UNSPECIFIED'), ('UNSPECIFIED'), ('UNSPECIFIED') ) ;
#42 = CARTESIAN_POINT ( 'NONE',  ( 7.499999999999996447, 7.500000000000000000, 7.500000000000000000 ) ) ;
#43 = ORIENTED_EDGE ( 'NONE', *, *, #95, .F. ) ;
#44 = PERSON_AND_ORGANIZATION ( #41, #77 ) ;
#45 = ORIENTED_EDGE ( 'NONE', *, *, #197, .F. ) ;
#46 = VECTOR ( 'NONE', #256, 1000.000000000000000 ) ;
#47 = ORIENTED_EDGE ( 'NONE', *, *, #8, .F. ) ;
#48 = DIRECTION ( 'NONE',  ( 0.000000000000000000, 0.000000000000000000, -1.000000000000000000 ) ) ;
#49 = CC_DESIGN_PERSON_AND_ORGANIZATION_ASSIGNMENT ( #287, #282, ( #150 ) ) ;
#50 = PLANE ( 'NONE',  #248 ) ;
#51 = CARTESIAN_POINT ( 'NONE',  ( -7.499999999999999112, -7.499999999999997335, 7.500000000000000000 ) ) ;
#52 = ORIENTED_EDGE ( 'NONE', *, *, #119, .T. ) ;
#53 = AXIS2_PLACEMENT_3D ( 'NONE', #151, #222, #272 ) ;
#54 = ORIENTED_EDGE ( 'NONE', *, *, #59, .F. ) ;
#55 = FACE_OUTER_BOUND ( 'NONE', #239, .T. ) ;
#56 = EDGE_CURVE ( 'NONE', #129, #179, #108, .T. ) ;
#57 = DIRECTION ( 'NONE',  ( 0.000000000000000000, 0.000000000000000000, 1.000000000000000000 ) ) ;
#58 = VECTOR ( 'NONE', #10, 1000.000000000000000 ) ;
#59 = EDGE_CURVE ( 'NONE', #278, #179, #84, .T. ) ;
#60 = DIRECTION ( 'NONE',  ( 0.000000000000000000, -0.000000000000000000, 1.000000000000000000 ) ) ;
#61 = UNCERTAINTY_MEASURE_WITH_UNIT (LENGTH_MEASURE( 1.000000000000000082E-05 ), #78, 'distance_accuracy_value', 'NONE');
#62 = CARTESIAN_POINT ( 'NONE',  ( 7.499999999999996447, 7.500000000000000000, 7.500000000000000000 ) ) ;
#63 = APPROVAL_ROLE ( '' ) ;
#64 = VECTOR ( 'NONE', #308, 1000.000000000000000 ) ;
#65 = CARTESIAN_POINT ( 'NONE',  ( -7.499999999999999112, -7.499999999999997335, -7.500000000000000000 ) ) ;
#66 = DIRECTION ( 'NONE',  ( 0.000000000000000000, 0.000000000000000000, 1.000000000000000000 ) ) ;
#67 = MANIFOLD_SOLID_BREP ( '¾µÏ', #207 ) ;
#68 = LINE ( 'NONE', #42, #286 ) ;
#69 = PRODUCT ( 'BK7-BSC-15-650-900', 'BK7-BSC-15-650-900', '', ( #220 ) ) ;
#70 = APPROVAL_PERSON_ORGANIZATION ( #21, #76, #214 ) ;
#71 = MANIFOLD_SOLID_BREP ( 'Í¹Ì¨-À', #169 ) ;
#72 = PERSON_AND_ORGANIZATION_ROLE ( 'creator' ) ;
#73 = CC_DESIGN_PERSON_AND_ORGANIZATION_ASSIGNMENT ( #11, #118, ( #299 ) ) ;
#74 = LINE ( 'NONE', #178, #174 ) ;
#75 = VECTOR ( 'NONE', #31, 1000.000000000000000 ) ;
#76 = APPROVAL ( #123, 'UNSPECIFIED' ) ;
#77 = ORGANIZATION ( 'UNSPECIFIED', 'UNSPECIFIED', '' ) ;
#78 =( LENGTH_UNIT ( ) NAMED_UNIT ( * ) SI_UNIT ( .MILLI., .METRE. ) );
#79 = DIRECTION ( 'NONE',  ( -0.7071067811865475727, 0.7071067811865475727, 0.000000000000000000 ) ) ;
#80 = VERTEX_POINT ( 'NONE', #184 ) ;
#81 = LINE ( 'NONE', #269, #270 ) ;
#82 = LINE ( 'NONE', #250, #75 ) ;
#83 = PLANE ( 'NONE',  #274 ) ;
#84 = LINE ( 'NONE', #307, #46 ) ;
#85 = ADVANCED_FACE ( 'NONE', ( #86 ), #83, .F. ) ;
#86 = FACE_OUTER_BOUND ( 'NONE', #105, .T. ) ;
#87 = CC_DESIGN_APPROVAL ( #76, ( #255 ) ) ;
#88 = DIRECTION ( 'NONE',  ( 0.000000000000000000, 0.000000000000000000, -1.000000000000000000 ) ) ;
#89 = COORDINATED_UNIVERSAL_TIME_OFFSET ( 8, 0, .AHEAD. ) ;
#90 = DIRECTION ( 'NONE',  ( 0.000000000000000000, 0.000000000000000000, 1.000000000000000000 ) ) ;
#91 = APPROVAL_DATE_TIME ( #311, #92 ) ;
#92 = APPROVAL ( #258, 'UNSPECIFIED' ) ;
#93 = CARTESIAN_POINT ( 'NONE',  ( -7.500000000000002665, 7.500000000000002665, 7.500000000000000000 ) ) ;
#94 = FACE_OUTER_BOUND ( 'NONE', #306, .T. ) ;
#95 = EDGE_CURVE ( 'NONE', #319, #129, #135, .T. ) ;
#96 = VERTEX_POINT ( 'NONE', #93 ) ;
#97 = AXIS2_PLACEMENT_3D ( 'NONE', #7, #134, #60 ) ;
#98 = CC_DESIGN_APPROVAL ( #92, ( #150 ) ) ;
#99 = CARTESIAN_POINT ( 'NONE',  ( 0.000000000000000000, 0.000000000000000000, 7.500000000000000000 ) ) ;
#100 = EDGE_CURVE ( 'NONE', #6, #107, #312, .T. ) ;
#101 = FACE_OUTER_BOUND ( 'NONE', #296, .T. ) ;
#102 = DIRECTION ( 'NONE',  ( 1.000000000000000000, -1.642204890591376725E-16, 0.000000000000000000 ) ) ;
#103 = EDGE_LOOP ( 'NONE', ( #253, #226, #244, #161 ) ) ;
#104 = ORIENTED_EDGE ( 'NONE', *, *, #302, .T. ) ;
#105 = EDGE_LOOP ( 'NONE', ( #201, #249, #104 ) ) ;
#106 = VECTOR ( 'NONE', #290, 1000.000000000000114 ) ;
#107 = VERTEX_POINT ( 'NONE', #167 ) ;
#108 = LINE ( 'NONE', #204, #112 ) ;
#109 = ORIENTED_EDGE ( 'NONE', *, *, #126, .T. ) ;
#110 = CC_DESIGN_PERSON_AND_ORGANIZATION_ASSIGNMENT ( #44, #147, ( #69 ) ) ;
#111 = LINE ( 'NONE', #156, #64 ) ;
#112 = VECTOR ( 'NONE', #159, 1000.000000000000000 ) ;
#113 = LINE ( 'NONE', #190, #298 ) ;
#114 = VECTOR ( 'NONE', #224, 999.9999999999998863 ) ;
#115 = APPROVAL_STATUS ( 'not_yet_approved' ) ;
#116 = CARTESIAN_POINT ( 'NONE',  ( 0.000000000000000000, 0.000000000000000000, 7.500000000000000000 ) ) ;
#117 = DIRECTION ( 'NONE',  ( -1.000000000000000000, 1.642204890591376725E-16, 0.000000000000000000 ) ) ;
#118 = PERSON_AND_ORGANIZATION_ROLE ( 'classification_officer' ) ;
#119 = EDGE_CURVE ( 'NONE', #278, #80, #163, .T. ) ;
#120 = LOCAL_TIME ( 11, 17, 41.00000000000000000, #89 ) ;
#121 = APPROVAL_PERSON_ORGANIZATION ( #18, #143, #63 ) ;
#122 = CARTESIAN_POINT ( 'NONE',  ( 7.500000000000000888, -7.500000000000000888, 7.500000000000000000 ) ) ;
#123 = APPROVAL_STATUS ( 'not_yet_approved' ) ;
#124 = AXIS2_PLACEMENT_3D ( 'NONE', #283, #17, #117 ) ;
#125 = CARTESIAN_POINT ( 'NONE',  ( -7.499999999999999112, -7.500000000000000888, -7.500000000000000000 ) ) ;
#126 = EDGE_CURVE ( 'NONE', #266, #129, #141, .T. ) ;
#127 = EDGE_LOOP ( 'NONE', ( #227, #20, #304, #229 ) ) ;
#128 = DIRECTION ( 'NONE',  ( 1.000000000000000000, 0.000000000000000000, 0.000000000000000000 ) ) ;
#129 = VERTEX_POINT ( 'NONE', #218 ) ;
#130 = CARTESIAN_POINT ( 'NONE',  ( 7.500000000000001776, 7.499999999999998224, 7.500000000000000000 ) ) ;
#131 = SHAPE_DEFINITION_REPRESENTATION ( #165, #175 ) ;
#132 = EDGE_CURVE ( 'NONE', #179, #319, #138, .T. ) ;
#133 = FACE_OUTER_BOUND ( 'NONE', #1, .T. ) ;
#134 = DIRECTION ( 'NONE',  ( 0.000000000000000000, 1.000000000000000000, 0.000000000000000000 ) ) ;
#135 = LINE ( 'NONE', #232, #58 ) ;
#136 = APPLICATION_PROTOCOL_DEFINITION ( 'international standard', 'config_control_design', 1994, #223 ) ;
#137 = VECTOR ( 'NONE', #144, 1000.000000000000114 ) ;
#138 = LINE ( 'NONE', #262, #106 ) ;
#139 =( GEOMETRIC_REPRESENTATION_CONTEXT ( 3 ) GLOBAL_UNCERTAINTY_ASSIGNED_CONTEXT ( ( #61 ) ) GLOBAL_UNIT_ASSIGNED_CONTEXT ( ( #78, #246, #187 ) ) REPRESENTATION_CONTEXT ( 'NONE', 'WORKASPACE' ) );
#140 = EDGE_CURVE ( 'NONE', #96, #6, #68, .T. ) ;
#141 = LINE ( 'NONE', #122, #181 ) ;
#142 = COORDINATED_UNIVERSAL_TIME_OFFSET ( 8, 0, .AHEAD. ) ;
#143 = APPROVAL ( #115, 'UNSPECIFIED' ) ;
#144 = DIRECTION ( 'NONE',  ( -0.7071067811865474617, -0.7071067811865474617, 0.000000000000000000 ) ) ;
#145 = ADVANCED_FACE ( 'NONE', ( #37 ), #260, .F. ) ;
#146 = DIRECTION ( 'NONE',  ( -2.220446049250312588E-16, 1.000000000000000000, 0.000000000000000000 ) ) ;
#147 = PERSON_AND_ORGANIZATION_ROLE ( 'design_owner' ) ;
#148 = DATE_TIME_ROLE ( 'classification_date' ) ;
#149 = LOCAL_TIME ( 11, 17, 41.00000000000000000, #142 ) ;
#150 = PRODUCT_DEFINITION ( 'UNKNOWN', '', #255, #208 ) ;
#151 = CARTESIAN_POINT ( 'NONE',  ( 7.500000000000001776, 7.499999999999998224, 7.500000000000000000 ) ) ;
#152 = FACE_OUTER_BOUND ( 'NONE', #252, .T. ) ;
#153 = ORIENTED_EDGE ( 'NONE', *, *, #14, .T. ) ;
#154 = ORIENTED_EDGE ( 'NONE', *, *, #185, .T. ) ;
#155 = LOCAL_TIME ( 11, 17, 41.00000000000000000, #284 ) ;
#156 = CARTESIAN_POINT ( 'NONE',  ( -7.499999999999999112, -7.499999999999997335, 7.500000000000000000 ) ) ;
#157 = EDGE_LOOP ( 'NONE', ( #52, #198, #275 ) ) ;
#158 = ADVANCED_FACE ( 'NONE', ( #94 ), #215, .T. ) ;
#159 = DIRECTION ( 'NONE',  ( 5.782411586589357392E-17, 1.000000000000000000, -0.000000000000000000 ) ) ;
#160 = CC_DESIGN_APPROVAL ( #143, ( #299 ) ) ;
#161 = ORIENTED_EDGE ( 'NONE', *, *, #177, .T. ) ;
#162 = DATE_TIME_ROLE ( 'creation_date' ) ;
#163 = LINE ( 'NONE', #170, #137 ) ;
#164 = DIRECTION ( 'NONE',  ( 1.000000000000000000, 0.000000000000000000, 0.000000000000000000 ) ) ;
#165 = PRODUCT_DEFINITION_SHAPE ( 'NONE', 'NONE',  #150 ) ;
#166 = APPROVAL_DATE_TIME ( #16, #143 ) ;
#167 = CARTESIAN_POINT ( 'NONE',  ( -7.499999999999999112, -7.499999999999997335, 7.500000000000000000 ) ) ;
#168 = DIRECTION ( 'NONE',  ( -0.000000000000000000, -0.000000000000000000, -1.000000000000000000 ) ) ;
#169 = CLOSED_SHELL ( 'NONE', ( #27, #35, #276, #281, #271 ) ) ;
#170 = CARTESIAN_POINT ( 'NONE',  ( 7.500000000000001776, 7.499999999999998224, 7.500000000000000000 ) ) ;
#171 = ORIENTED_EDGE ( 'NONE', *, *, #315, .F. ) ;
#172 = ORIENTED_EDGE ( 'NONE', *, *, #251, .T. ) ;
#173 = CALENDAR_DATE ( 2020, 22, 12 ) ;
#174 = VECTOR ( 'NONE', #102, 1000.000000000000000 ) ;
#175 = ADVANCED_BREP_SHAPE_REPRESENTATION ( 'BK7-BSC-15-650-900', ( #71, #67, #216 ), #139 ) ;
#176 = ORIENTED_EDGE ( 'NONE', *, *, #56, .T. ) ;
#177 = EDGE_CURVE ( 'NONE', #6, #195, #263, .T. ) ;
#178 = CARTESIAN_POINT ( 'NONE',  ( 7.499999999999996447, 7.500000000000000000, -7.500000000000000000 ) ) ;
#179 = VERTEX_POINT ( 'NONE', #314 ) ;
#180 = DIRECTION ( 'NONE',  ( -0.000000000000000000, 0.000000000000000000, 1.000000000000000000 ) ) ;
#181 = VECTOR ( 'NONE', #264, 1000.000000000000000 ) ;
#182 = DIRECTION ( 'NONE',  ( 0.7071067811865475727, -0.7071067811865475727, 0.000000000000000000 ) ) ;
#183 = CARTESIAN_POINT ( 'NONE',  ( 0.000000000000000000, 0.000000000000000000, -7.500000000000000000 ) ) ;
#184 = CARTESIAN_POINT ( 'NONE',  ( -7.499999999999999112, -7.500000000000000888, 7.500000000000000000 ) ) ;
#185 = EDGE_CURVE ( 'NONE', #80, #319, #113, .T. ) ;
#186 = DIRECTION ( 'NONE',  ( 0.7071067811865474617, 0.7071067811865474617, 0.000000000000000000 ) ) ;
#187 =( NAMED_UNIT ( * ) SI_UNIT ( $, .STERADIAN. ) SOLID_ANGLE_UNIT ( ) );
#188 = CARTESIAN_POINT ( 'NONE',  ( 7.499999999999996447, 7.500000000000000000, -7.500000000000000000 ) ) ;
#189 = COORDINATED_UNIVERSAL_TIME_OFFSET ( 8, 0, .AHEAD. ) ;
#190 = CARTESIAN_POINT ( 'NONE',  ( -7.499999999999999112, -7.500000000000000888, 7.500000000000000000 ) ) ;
#191 = AXIS2_PLACEMENT_3D ( 'NONE', #116, #90, #146 ) ;
#192 = CARTESIAN_POINT ( 'NONE',  ( 7.499999999999996447, 7.500000000000000000, 7.500000000000000000 ) ) ;
#193 = CC_DESIGN_DATE_AND_TIME_ASSIGNMENT ( #36, #162, ( #150 ) ) ;
#194 = APPLICATION_PROTOCOL_DEFINITION ( 'international standard', 'config_control_design', 1994, #247 ) ;
#195 = VERTEX_POINT ( 'NONE', #188 ) ;
#196 = CARTESIAN_POINT ( 'NONE',  ( 7.500000000000000888, -7.500000000000000888, 7.500000000000000000 ) ) ;
#197 = EDGE_CURVE ( 'NONE', #303, #203, #285, .T. ) ;
#198 = ORIENTED_EDGE ( 'NONE', *, *, #19, .T. ) ;
#199 = CARTESIAN_POINT ( 'NONE',  ( 7.499999999999996447, 7.500000000000000000, -7.500000000000000000 ) ) ;
#200 = ORIENTED_EDGE ( 'NONE', *, *, #140, .F. ) ;
#201 = ORIENTED_EDGE ( 'NONE', *, *, #265, .T. ) ;
#202 = VECTOR ( 'NONE', #48, 1000.000000000000000 ) ;
#203 = VERTEX_POINT ( 'NONE', #211 ) ;
#204 = CARTESIAN_POINT ( 'NONE',  ( 7.500000000000001776, 7.499999999999998224, -7.500000000000000000 ) ) ;
#205 = ADVANCED_FACE ( 'NONE', ( #310 ), #40, .F. ) ;
#206 = APPROVAL_ROLE ( '' ) ;
#207 = CLOSED_SHELL ( 'NONE', ( #209, #145, #205, #158, #85 ) ) ;
#208 = DESIGN_CONTEXT ( 'detailed design', #223, 'design' ) ;
#209 = ADVANCED_FACE ( 'NONE', ( #213 ), #50, .F. ) ;
#210 = VECTOR ( 'NONE', #236, 1000.000000000000000 ) ;
#211 = CARTESIAN_POINT ( 'NONE',  ( -7.500000000000002665, 7.500000000000002665, -7.500000000000000000 ) ) ;
#212 = SECURITY_CLASSIFICATION_LEVEL ( 'unclassified' ) ;
#213 = FACE_OUTER_BOUND ( 'NONE', #127, .T. ) ;
#214 = APPROVAL_ROLE ( '' ) ;
#215 = PLANE ( 'NONE',  #191 ) ;
#216 = AXIS2_PLACEMENT_3D ( 'NONE', #318, #66, #164 ) ;
#217 = LOCAL_TIME ( 11, 17, 41.00000000000000000, #267 ) ;
#218 = CARTESIAN_POINT ( 'NONE',  ( 7.500000000000000888, -7.500000000000000888, -7.500000000000000000 ) ) ;
#219 = ORIENTED_EDGE ( 'NONE', *, *, #95, .T. ) ;
#220 = MECHANICAL_CONTEXT ( 'NONE', #247, 'mechanical' ) ;
#221 = ORIENTED_EDGE ( 'NONE', *, *, #19, .F. ) ;
#222 = DIRECTION ( 'NONE',  ( -1.000000000000000000, 5.782411586589357392E-17, 0.000000000000000000 ) ) ;
#223 = APPLICATION_CONTEXT ( 'configuration controlled 3d designs of mechanical parts and assemblies' ) ;
#224 = DIRECTION ( 'NONE',  ( -0.7071067811865475727, -0.7071067811865475727, 0.000000000000000000 ) ) ;
#225 = FACE_OUTER_BOUND ( 'NONE', #157, .T. ) ;
#226 = ORIENTED_EDGE ( 'NONE', *, *, #251, .F. ) ;
#227 = ORIENTED_EDGE ( 'NONE', *, *, #265, .F. ) ;
#228 = CARTESIAN_POINT ( 'NONE',  ( 7.500000000000001776, 7.499999999999998224, 7.500000000000000000 ) ) ;
#229 = ORIENTED_EDGE ( 'NONE', *, *, #315, .T. ) ;
#230 = PLANE ( 'NONE',  #97 ) ;
#231 = LINE ( 'NONE', #228, #245 ) ;
#232 = CARTESIAN_POINT ( 'NONE',  ( -7.499999999999999112, -7.500000000000000888, -7.500000000000000000 ) ) ;
#233 = DATE_AND_TIME ( #173, #155 ) ;
#234 = DIRECTION ( 'NONE',  ( 1.000000000000000000, -2.220446049250312588E-16, 0.000000000000000000 ) ) ;
#235 = CALENDAR_DATE ( 2020, 22, 12 ) ;
#236 = DIRECTION ( 'NONE',  ( -2.220446049250312588E-16, 1.000000000000000000, 0.000000000000000000 ) ) ;
#237 = CARTESIAN_POINT ( 'NONE',  ( -7.499999999999999112, -7.499999999999997335, 7.500000000000000000 ) ) ;
#238 = DIRECTION ( 'NONE',  ( 1.000000000000000000, -1.642204890591376725E-16, 0.000000000000000000 ) ) ;
#239 = EDGE_LOOP ( 'NONE', ( #219, #33, #221, #154 ) ) ;
#240 = PERSON_AND_ORGANIZATION ( #41, #77 ) ;
#241 = LINE ( 'NONE', #51, #202 ) ;
#242 = ORIENTED_EDGE ( 'NONE', *, *, #132, .T. ) ;
#243 = PLANE ( 'NONE',  #53 ) ;
#244 = ORIENTED_EDGE ( 'NONE', *, *, #140, .T. ) ;
#245 = VECTOR ( 'NONE', #280, 1000.000000000000000 ) ;
#246 =( NAMED_UNIT ( * ) PLANE_ANGLE_UNIT ( ) SI_UNIT ( $, .RADIAN. ) );
#247 = APPLICATION_CONTEXT ( 'configuration controlled 3d designs of mechanical parts and assemblies' ) ;
#248 = AXIS2_PLACEMENT_3D ( 'NONE', #29, #79, #24 ) ;
#249 = ORIENTED_EDGE ( 'NONE', *, *, #197, .T. ) ;
#250 = CARTESIAN_POINT ( 'NONE',  ( -7.499999999999999112, -7.500000000000000888, 7.500000000000000000 ) ) ;
#251 = EDGE_CURVE ( 'NONE', #96, #203, #81, .T. ) ;
#252 = EDGE_LOOP ( 'NONE', ( #25, #30, #43 ) ) ;
#253 = ORIENTED_EDGE ( 'NONE', *, *, #302, .F. ) ;
#254 = APPROVAL_PERSON_ORGANIZATION ( #240, #92, #206 ) ;
#255 = PRODUCT_DEFINITION_FORMATION_WITH_SPECIFIED_SOURCE ( 'ANY', '', #69, .NOT_KNOWN. ) ;
#256 = DIRECTION ( 'NONE',  ( -0.000000000000000000, -0.000000000000000000, -1.000000000000000000 ) ) ;
#257 = CC_DESIGN_DATE_AND_TIME_ASSIGNMENT ( #233, #148, ( #299 ) ) ;
#258 = APPROVAL_STATUS ( 'not_yet_approved' ) ;
#259 = CALENDAR_DATE ( 2020, 22, 12 ) ;
#260 = PLANE ( 'NONE',  #5 ) ;
#261 = CALENDAR_DATE ( 2020, 22, 12 ) ;
#262 = CARTESIAN_POINT ( 'NONE',  ( 7.500000000000001776, 7.499999999999998224, -7.500000000000000000 ) ) ;
#263 = LINE ( 'NONE', #316, #268 ) ;
#264 = DIRECTION ( 'NONE',  ( -0.000000000000000000, -0.000000000000000000, -1.000000000000000000 ) ) ;
#265 = EDGE_CURVE ( 'NONE', #195, #303, #2, .T. ) ;
#266 = VERTEX_POINT ( 'NONE', #196 ) ;
#267 = COORDINATED_UNIVERSAL_TIME_OFFSET ( 8, 0, .AHEAD. ) ;
#268 = VECTOR ( 'NONE', #88, 1000.000000000000000 ) ;
#269 = CARTESIAN_POINT ( 'NONE',  ( -7.500000000000002665, 7.500000000000002665, 7.500000000000000000 ) ) ;
#270 = VECTOR ( 'NONE', #26, 1000.000000000000000 ) ;
#271 = ADVANCED_FACE ( 'NONE', ( #152 ), #320, .F. ) ;
#272 = DIRECTION ( 'NONE',  ( -5.782411586589357392E-17, -1.000000000000000000, 0.000000000000000000 ) ) ;
#273 = PLANE ( 'NONE',  #277 ) ;
#274 = AXIS2_PLACEMENT_3D ( 'NONE', #183, #57, #34 ) ;
#275 = ORIENTED_EDGE ( 'NONE', *, *, #8, .T. ) ;
#276 = ADVANCED_FACE ( 'NONE', ( #101 ), #243, .F. ) ;
#277 = AXIS2_PLACEMENT_3D ( 'NONE', #99, #321, #128 ) ;
#278 = VERTEX_POINT ( 'NONE', #130 ) ;
#279 = CC_DESIGN_PERSON_AND_ORGANIZATION_ASSIGNMENT ( #313, #72, ( #255 ) ) ;
#280 = DIRECTION ( 'NONE',  ( 5.782411586589357392E-17, 1.000000000000000000, -0.000000000000000000 ) ) ;
#281 = ADVANCED_FACE ( 'NONE', ( #225 ), #273, .T. ) ;
#282 = PERSON_AND_ORGANIZATION_ROLE ( 'creator' ) ;
#283 = CARTESIAN_POINT ( 'NONE',  ( 7.499999999999996447, 7.500000000000000000, 7.500000000000000000 ) ) ;
#284 = COORDINATED_UNIVERSAL_TIME_OFFSET ( 8, 0, .AHEAD. ) ;
#285 = LINE ( 'NONE', #65, #210 ) ;
#286 = VECTOR ( 'NONE', #238, 1000.000000000000000 ) ;
#287 = PERSON_AND_ORGANIZATION ( #41, #77 ) ;
#288 = CC_DESIGN_SECURITY_CLASSIFICATION ( #299, ( #255 ) ) ;
#289 = DIRECTION ( 'NONE',  ( -0.7071067811865475727, -0.7071067811865475727, 0.000000000000000000 ) ) ;
#290 = DIRECTION ( 'NONE',  ( -0.7071067811865474617, -0.7071067811865474617, 0.000000000000000000 ) ) ;
#291 = VECTOR ( 'NONE', #289, 999.9999999999998863 ) ;
#292 = CC_DESIGN_PERSON_AND_ORGANIZATION_ASSIGNMENT ( #12, #309, ( #255 ) ) ;
#293 = EDGE_LOOP ( 'NONE', ( #45, #171, #153, #172 ) ) ;
#294 = APPROVAL_DATE_TIME ( #39, #76 ) ;
#295 = AXIS2_PLACEMENT_3D ( 'NONE', #305, #182, #186 ) ;
#296 = EDGE_LOOP ( 'NONE', ( #176, #54, #47, #109 ) ) ;
#297 = CARTESIAN_POINT ( 'NONE',  ( -7.499999999999999112, -7.499999999999997335, -7.500000000000000000 ) ) ;
#298 = VECTOR ( 'NONE', #168, 1000.000000000000000 ) ;
#299 = SECURITY_CLASSIFICATION ( '', '', #212 ) ;
#300 = ORIENTED_EDGE ( 'NONE', *, *, #185, .F. ) ;
#301 = CARTESIAN_POINT ( 'NONE',  ( 0.000000000000000000, 0.000000000000000000, -7.500000000000000000 ) ) ;
#302 = EDGE_CURVE ( 'NONE', #203, #195, #74, .T. ) ;
#303 = VERTEX_POINT ( 'NONE', #297 ) ;
#304 = ORIENTED_EDGE ( 'NONE', *, *, #100, .T. ) ;
#305 = CARTESIAN_POINT ( 'NONE',  ( 7.500000000000001776, 7.499999999999998224, 7.500000000000000000 ) ) ;
#306 = EDGE_LOOP ( 'NONE', ( #3, #200, #32 ) ) ;
#307 = CARTESIAN_POINT ( 'NONE',  ( 7.500000000000001776, 7.499999999999998224, 7.500000000000000000 ) ) ;
#308 = DIRECTION ( 'NONE',  ( -2.220446049250312588E-16, 1.000000000000000000, 0.000000000000000000 ) ) ;
#309 = PERSON_AND_ORGANIZATION_ROLE ( 'design_supplier' ) ;
#310 = FACE_OUTER_BOUND ( 'NONE', #103, .T. ) ;
#311 = DATE_AND_TIME ( #235, #120 ) ;
#312 = LINE ( 'NONE', #192, #291 ) ;
#313 = PERSON_AND_ORGANIZATION ( #41, #77 ) ;
#314 = CARTESIAN_POINT ( 'NONE',  ( 7.500000000000001776, 7.499999999999998224, -7.500000000000000000 ) ) ;
#315 = EDGE_CURVE ( 'NONE', #107, #303, #241, .T. ) ;
#316 = CARTESIAN_POINT ( 'NONE',  ( 7.499999999999996447, 7.500000000000000000, 7.500000000000000000 ) ) ;
#317 = PRODUCT_RELATED_PRODUCT_CATEGORY ( 'detail', '', ( #69 ) ) ;
#318 = CARTESIAN_POINT ( 'NONE',  ( 0.000000000000000000, 0.000000000000000000, 0.000000000000000000 ) ) ;
#319 = VERTEX_POINT ( 'NONE', #125 ) ;
#320 = PLANE ( 'NONE',  #13 ) ;
#321 = DIRECTION ( 'NONE',  ( -0.000000000000000000, 0.000000000000000000, 1.000000000000000000 ) ) ;
ENDSEC;
END-ISO-10303-21;
